ISO-10303-21;
HEADER;
FILE_DESCRIPTION (( 'STEP AP203' ),
    '1' );
FILE_NAME ('End Cap SDR11_001 117 0140 0075.step',
    '2019-12-16T11:41:08',
    ( '' ),
    ( '' ),
    'SwSTEP 2.0',
    'SolidWorks 2019',
    '' );
FILE_SCHEMA (( 'CONFIG_CONTROL_DESIGN' ));
ENDSEC;

DATA;
#1 = ORIENTED_EDGE ( 'NONE', *, *, #163, .T. ) ;
#2 = EDGE_LOOP ( 'NONE', ( #46, #23, #125 ) ) ;
#3 = AXIS2_PLACEMENT_3D ( 'NONE', #284, #65, #171 ) ;
#4 = CARTESIAN_POINT ( 'NONE',  ( 0.0000000000000000000, -30.82458075981011092, 0.0000000000000000000 ) ) ;
#5 = CARTESIAN_POINT ( 'NONE',  ( -1.264579234030115357E-16, -30.82458075981011092, -1.032607307601313806 ) ) ;
#6 = DIRECTION ( 'NONE',  ( -0.0000000000000000000, -1.000000000000000000, -0.0000000000000000000 ) ) ;
#7 = DIRECTION ( 'NONE',  ( -0.0000000000000000000, -1.000000000000000000, -0.0000000000000000000 ) ) ;
#8 = CARTESIAN_POINT ( 'NONE',  ( 0.0000000000000000000, 0.0000000000000000000, -30.69999999999999929 ) ) ;
#9 = FACE_OUTER_BOUND ( 'NONE', #306, .T. ) ;
#10 = ORGANIZATION ( 'BELÝRTÝLMEMÝÞ', 'BELÝRTÝLMEMÝÞ', '' ) ;
#11 = DIRECTION ( 'NONE',  ( -0.0000000000000000000, -1.000000000000000000, -0.0000000000000000000 ) ) ;
#12 = DIRECTION ( 'NONE',  ( 0.0000000000000000000, 0.0000000000000000000, -1.000000000000000000 ) ) ;
#13 = APPLICATION_PROTOCOL_DEFINITION ( 'international standard', 'config_control_design', 1994, #160 ) ;
#14 = EDGE_CURVE ( 'NONE', #48, #177, #230, .T. ) ;
#15 = PERSON_AND_ORGANIZATION_ROLE ( 'design_owner' ) ;
#16 = DATE_AND_TIME ( #246, #268 ) ;
#17 = SECURITY_CLASSIFICATION_LEVEL ( 'unclassified' ) ;
#18 = TOROIDAL_SURFACE ( 'NONE', #124, -1.032607307601313806, 105.7003048809694974 ) ;
#19 =( GEOMETRIC_REPRESENTATION_CONTEXT ( 3 ) GLOBAL_UNCERTAINTY_ASSIGNED_CONTEXT ( ( #156 ) ) GLOBAL_UNIT_ASSIGNED_CONTEXT ( ( #301, #282, #262 ) ) REPRESENTATION_CONTEXT ( 'NONE', 'WORKASPACE' ) );
#20 = APPROVAL_DATE_TIME ( #248, #216 ) ;
#21 = PERSON ( 'BELÝRTÝLMEMÝÞ', 'BELÝRTÝLMEMÝÞ', 'BELÝRTÝLMEMÝÞ', ('BELÝRTÝLMEMÝÞ'), ('BELÝRTÝLMEMÝÞ'), ('BELÝRTÝLMEMÝÞ') ) ;
#22 = VERTEX_POINT ( 'NONE', #254 ) ;
#23 = ORIENTED_EDGE ( 'NONE', *, *, #58, .T. ) ;
#24 = ADVANCED_FACE ( 'NONE', ( #27 ), #226, .T. ) ;
#25 = EDGE_LOOP ( 'NONE', ( #250, #269, #1, #26 ) ) ;
#26 = ORIENTED_EDGE ( 'NONE', *, *, #40, .T. ) ;
#27 = FACE_OUTER_BOUND ( 'NONE', #179, .T. ) ;
#28 = AXIS2_PLACEMENT_3D ( 'NONE', #296, #83, #190 ) ;
#29 = DESIGN_CONTEXT ( 'detailed design', #180, 'design' ) ;
#30 = CC_DESIGN_APPROVAL ( #181, ( #129 ) ) ;
#31 = CARTESIAN_POINT ( 'NONE',  ( 0.0000000000000000000, 0.0000000000000000000, 0.0000000000000000000 ) ) ;
#32 = FACE_OUTER_BOUND ( 'NONE', #153, .T. ) ;
#33 = DIRECTION ( 'NONE',  ( 0.0000000000000000000, -1.000000000000000000, -0.0000000000000000000 ) ) ;
#34 = CARTESIAN_POINT ( 'NONE',  ( 0.0000000000000000000, 74.87068012769701397, 0.0000000000000000000 ) ) ;
#35 = EDGE_CURVE ( 'NONE', #96, #22, #215, .T. ) ;
#36 = FACE_OUTER_BOUND ( 'NONE', #94, .T. ) ;
#37 = CIRCLE ( 'NONE', #185, 105.7003048809694974 ) ;
#38 = DIRECTION ( 'NONE',  ( 0.0000000000000000000, 0.0000000000000000000, -1.000000000000000000 ) ) ;
#39 = PERSON_AND_ORGANIZATION_ROLE ( 'creator' ) ;
#40 = EDGE_CURVE ( 'NONE', #206, #75, #209, .T. ) ;
#41 = PERSON_AND_ORGANIZATION_ROLE ( 'creator' ) ;
#42 = ADVANCED_FACE ( 'NONE', ( #157 ), #255, .F. ) ;
#43 = COORDINATED_UNIVERSAL_TIME_OFFSET ( 3, 0, .AHEAD. ) ;
#44 = AXIS2_PLACEMENT_3D ( 'NONE', #138, #244, #12 ) ;
#45 = APPROVAL_PERSON_ORGANIZATION ( #222, #151, #88 ) ;
#46 = ORIENTED_EDGE ( 'NONE', *, *, #233, .F. ) ;
#47 = EDGE_CURVE ( 'NONE', #96, #232, #196, .T. ) ;
#48 = VERTEX_POINT ( 'NONE', #294 ) ;
#49 = ORIENTED_EDGE ( 'NONE', *, *, #233, .T. ) ;
#50 = CIRCLE ( 'NONE', #44, 37.50000000000000000 ) ;
#51 = ORIENTED_EDGE ( 'NONE', *, *, #97, .T. ) ;
#52 = DIRECTION ( 'NONE',  ( -0.0000000000000000000, -1.000000000000000000, -0.0000000000000000000 ) ) ;
#53 = DIRECTION ( 'NONE',  ( 0.0000000000000000000, 0.0000000000000000000, -1.000000000000000000 ) ) ;
#54 = AXIS2_PLACEMENT_3D ( 'NONE', #194, #261, #38 ) ;
#55 = LINE ( 'NONE', #159, #184 ) ;
#56 = FACE_BOUND ( 'NONE', #291, .T. ) ;
#57 = CARTESIAN_POINT ( 'NONE',  ( 0.0000000000000000000, 0.0000000000000000000, -37.49999999999999289 ) ) ;
#58 = EDGE_CURVE ( 'NONE', #253, #48, #37, .T. ) ;
#59 = DIRECTION ( 'NONE',  ( -0.0000000000000000000, -1.000000000000000000, -0.0000000000000000000 ) ) ;
#60 = CARTESIAN_POINT ( 'NONE',  ( 0.0000000000000000000, -30.82458075981011092, 1.032607307601313806 ) ) ;
#61 = DIRECTION ( 'NONE',  ( -0.0000000000000000000, -1.000000000000000000, -0.0000000000000000000 ) ) ;
#62 = DIRECTION ( 'NONE',  ( -0.0000000000000000000, -1.000000000000000000, -0.0000000000000000000 ) ) ;
#63 = CIRCLE ( 'NONE', #54, 30.69999999999998153 ) ;
#64 = AXIS2_PLACEMENT_3D ( 'NONE', #281, #62, #169 ) ;
#65 = DIRECTION ( 'NONE',  ( 0.0000000000000000000, 0.0000000000000000000, 1.000000000000000000 ) ) ;
#66 = DATE_AND_TIME ( #285, #236 ) ;
#67 = AXIS2_PLACEMENT_3D ( 'NONE', #242, #11, #112 ) ;
#68 = DATE_AND_TIME ( #286, #178 ) ;
#69 = EDGE_CURVE ( 'NONE', #232, #204, #55, .T. ) ;
#70 = PERSON_AND_ORGANIZATION ( #21, #10 ) ;
#71 = LOCAL_TIME ( 14, 41, 8.000000000000000000, #305 ) ;
#72 = ADVANCED_FACE ( 'NONE', ( #32 ), #132, .T. ) ;
#73 = ORIENTED_EDGE ( 'NONE', *, *, #105, .T. ) ;
#74 = ORIENTED_EDGE ( 'NONE', *, *, #69, .T. ) ;
#75 = VERTEX_POINT ( 'NONE', #214 ) ;
#76 = TOROIDAL_SURFACE ( 'NONE', #64, -1.032607307601313806, 112.5000000000000000 ) ;
#77 = ORIENTED_EDGE ( 'NONE', *, *, #135, .F. ) ;
#78 = DIRECTION ( 'NONE',  ( 0.0000000000000000000, 0.0000000000000000000, 1.000000000000000000 ) ) ;
#79 = CARTESIAN_POINT ( 'NONE',  ( -1.264579234030115357E-16, -30.82458075981011092, -1.032607307601313806 ) ) ;
#80 = DIRECTION ( 'NONE',  ( -0.0000000000000000000, -1.000000000000000000, -0.0000000000000000000 ) ) ;
#81 = EDGE_CURVE ( 'NONE', #123, #204, #170, .T. ) ;
#82 = AXIS2_PLACEMENT_3D ( 'NONE', #60, #165, #260 ) ;
#83 = DIRECTION ( 'NONE',  ( -0.0000000000000000000, -1.000000000000000000, -0.0000000000000000000 ) ) ;
#84 = CARTESIAN_POINT ( 'NONE',  ( 0.0000000000000000000, -30.82458075981011092, 0.0000000000000000000 ) ) ;
#85 = DIRECTION ( 'NONE',  ( 0.0000000000000000000, 0.0000000000000000000, -1.000000000000000000 ) ) ;
#86 = CIRCLE ( 'NONE', #82, 105.7003048809694974 ) ;
#87 = CC_DESIGN_APPROVAL ( #151, ( #139 ) ) ;
#88 = APPROVAL_ROLE ( '' ) ;
#89 = APPROVAL_ROLE ( '' ) ;
#90 = EDGE_CURVE ( 'NONE', #22, #123, #278, .T. ) ;
#91 = AXIS2_PLACEMENT_3D ( 'NONE', #84, #191, #279 ) ;
#92 = CALENDAR_DATE ( 2019, 16, 12 ) ;
#93 = PRODUCT_DEFINITION_SHAPE ( 'NONE', 'NONE',  #139 ) ;
#94 = EDGE_LOOP ( 'NONE', ( #272, #73, #208, #251 ) ) ;
#95 = TOROIDAL_SURFACE ( 'NONE', #91, -1.032607307601313806, 105.7003048809694974 ) ;
#96 = VERTEX_POINT ( 'NONE', #259 ) ;
#97 = EDGE_CURVE ( 'NONE', #22, #232, #145, .T. ) ;
#98 = EDGE_LOOP ( 'NONE', ( #182, #289 ) ) ;
#99 = ADVANCED_FACE ( 'NONE', ( #9 ), #111, .T. ) ;
#100 = ORIENTED_EDGE ( 'NONE', *, *, #40, .F. ) ;
#101 = AXIS2_PLACEMENT_3D ( 'NONE', #258, #33, #133 ) ;
#102 = VECTOR ( 'NONE', #80, 1000.000000000000000 ) ;
#103 = DIRECTION ( 'NONE',  ( -0.0000000000000000000, -1.000000000000000000, -0.0000000000000000000 ) ) ;
#104 = DIRECTION ( 'NONE',  ( 1.000000000000000000, 0.0000000000000000000, -1.224646799147353207E-16 ) ) ;
#105 = EDGE_CURVE ( 'NONE', #48, #75, #192, .T. ) ;
#106 = DIRECTION ( 'NONE',  ( 0.0000000000000000000, 0.0000000000000000000, -1.000000000000000000 ) ) ;
#107 = DIRECTION ( 'NONE',  ( 0.0000000000000000000, 0.0000000000000000000, -1.000000000000000000 ) ) ;
#108 = DIRECTION ( 'NONE',  ( 0.0000000000000000000, 0.0000000000000000000, -1.000000000000000000 ) ) ;
#109 = FACE_OUTER_BOUND ( 'NONE', #2, .T. ) ;
#110 = AXIS2_PLACEMENT_3D ( 'NONE', #221, #6, #106 ) ;
#111 = CYLINDRICAL_SURFACE ( 'NONE', #128, 37.49999999999999289 ) ;
#112 = DIRECTION ( 'NONE',  ( 0.0000000000000000000, 0.0000000000000000000, -1.000000000000000000 ) ) ;
#113 = CIRCLE ( 'NONE', #110, 37.49999999999997868 ) ;
#114 = LOCAL_TIME ( 14, 41, 8.000000000000000000, #43 ) ;
#115 = APPLICATION_PROTOCOL_DEFINITION ( 'international standard', 'config_control_design', 1994, #180 ) ;
#116 = ADVANCED_FACE ( 'NONE', ( #166 ), #18, .F. ) ;
#117 = DATE_TIME_ROLE ( 'creation_date' ) ;
#118 = PERSON_AND_ORGANIZATION ( #21, #10 ) ;
#119 = AXIS2_PLACEMENT_3D ( 'NONE', #164, #59, #108 ) ;
#120 = CIRCLE ( 'NONE', #119, 30.69999999999999929 ) ;
#121 = SHAPE_DEFINITION_REPRESENTATION ( #93, #283 ) ;
#122 = ORIENTED_EDGE ( 'NONE', *, *, #298, .F. ) ;
#123 = VERTEX_POINT ( 'NONE', #146 ) ;
#124 = AXIS2_PLACEMENT_3D ( 'NONE', #148, #155, #143 ) ;
#125 = ORIENTED_EDGE ( 'NONE', *, *, #14, .T. ) ;
#126 = EDGE_CURVE ( 'NONE', #75, #206, #120, .T. ) ;
#127 = ORIENTED_EDGE ( 'NONE', *, *, #90, .F. ) ;
#128 = AXIS2_PLACEMENT_3D ( 'NONE', #217, #299, #85 ) ;
#129 = PRODUCT_DEFINITION_FORMATION_WITH_SPECIFIED_SOURCE ( 'HERHANGÝ', '', #176, .NOT_KNOWN. ) ;
#130 = DIRECTION ( 'NONE',  ( -0.0000000000000000000, -1.000000000000000000, -0.0000000000000000000 ) ) ;
#131 = CC_DESIGN_PERSON_AND_ORGANIZATION_ASSIGNMENT ( #245, #15, ( #176 ) ) ;
#132 = CYLINDRICAL_SURFACE ( 'NONE', #168, 37.49999999999999289 ) ;
#133 = DIRECTION ( 'NONE',  ( 0.0000000000000000000, 0.0000000000000000000, -1.000000000000000000 ) ) ;
#134 = DIRECTION ( 'NONE',  ( -0.0000000000000000000, -1.000000000000000000, -0.0000000000000000000 ) ) ;
#135 = EDGE_CURVE ( 'NONE', #232, #22, #113, .T. ) ;
#136 = CYLINDRICAL_SURFACE ( 'NONE', #67, 30.69999999999999218 ) ;
#137 = VECTOR ( 'NONE', #61, 1000.000000000000000 ) ;
#138 = CARTESIAN_POINT ( 'NONE',  ( 0.0000000000000000000, 0.0000000000000000000, 0.0000000000000000000 ) ) ;
#139 = PRODUCT_DEFINITION ( 'BÝLÝNMEYEN', '', #129, #29 ) ;
#140 = COORDINATED_UNIVERSAL_TIME_OFFSET ( 3, 0, .AHEAD. ) ;
#141 = PERSON_AND_ORGANIZATION ( #21, #10 ) ;
#142 = CALENDAR_DATE ( 2019, 16, 12 ) ;
#143 = DIRECTION ( 'NONE',  ( 0.0000000000000000000, 0.0000000000000000000, -1.000000000000000000 ) ) ;
#144 = AXIS2_PLACEMENT_3D ( 'NONE', #34, #134, #240 ) ;
#145 = CIRCLE ( 'NONE', #144, 37.49999999999997868 ) ;
#146 = CARTESIAN_POINT ( 'NONE',  ( 0.0000000000000000000, 0.0000000000000000000, -37.50000000000000000 ) ) ;
#147 = ORIENTED_EDGE ( 'NONE', *, *, #69, .F. ) ;
#148 = CARTESIAN_POINT ( 'NONE',  ( 0.0000000000000000000, -30.82458075981011092, 0.0000000000000000000 ) ) ;
#149 = ORIENTED_EDGE ( 'NONE', *, *, #35, .T. ) ;
#150 = ORIENTED_EDGE ( 'NONE', *, *, #47, .F. ) ;
#151 = APPROVAL ( #303, 'BELÝRTÝLMEMÝÞ' ) ;
#152 = VECTOR ( 'NONE', #162, 1000.000000000000000 ) ;
#153 = EDGE_LOOP ( 'NONE', ( #147, #273, #290, #122 ) ) ;
#154 = DIRECTION ( 'NONE',  ( 0.0000000000000000000, 0.0000000000000000000, -1.000000000000000000 ) ) ;
#155 = DIRECTION ( 'NONE',  ( -0.0000000000000000000, -1.000000000000000000, -0.0000000000000000000 ) ) ;
#156 = UNCERTAINTY_MEASURE_WITH_UNIT (LENGTH_MEASURE( 1.000000000000000082E-05 ), #301, 'distance_accuracy_value', 'NONE');
#157 = FACE_OUTER_BOUND ( 'NONE', #25, .T. ) ;
#158 = CC_DESIGN_SECURITY_CLASSIFICATION ( #220, ( #129 ) ) ;
#159 = CARTESIAN_POINT ( 'NONE',  ( 4.592425496802573578E-15, 0.0000000000000000000, 37.49999999999999289 ) ) ;
#160 = APPLICATION_CONTEXT ( 'configuration controlled 3d designs of mechanical parts and assemblies' ) ;
#161 = PLANE ( 'NONE',  #101 ) ;
#162 = DIRECTION ( 'NONE',  ( -0.0000000000000000000, -1.000000000000000000, -0.0000000000000000000 ) ) ;
#163 = EDGE_CURVE ( 'NONE', #177, #206, #213, .T. ) ;
#164 = CARTESIAN_POINT ( 'NONE',  ( 0.0000000000000000000, 0.0000000000000000000, 0.0000000000000000000 ) ) ;
#165 = DIRECTION ( 'NONE',  ( -1.000000000000000000, 0.0000000000000000000, 0.0000000000000000000 ) ) ;
#166 = FACE_OUTER_BOUND ( 'NONE', #292, .T. ) ;
#167 = CC_DESIGN_PERSON_AND_ORGANIZATION_ASSIGNMENT ( #264, #39, ( #139 ) ) ;
#168 = AXIS2_PLACEMENT_3D ( 'NONE', #238, #7, #107 ) ;
#169 = DIRECTION ( 'NONE',  ( 0.0000000000000000000, 0.0000000000000000000, -1.000000000000000000 ) ) ;
#170 = CIRCLE ( 'NONE', #28, 37.50000000000000000 ) ;
#171 = DIRECTION ( 'NONE',  ( 1.000000000000000000, 0.0000000000000000000, 0.0000000000000000000 ) ) ;
#172 = CC_DESIGN_DATE_AND_TIME_ASSIGNMENT ( #16, #117, ( #139 ) ) ;
#173 = APPROVAL_DATE_TIME ( #66, #151 ) ;
#174 = APPROVAL_DATE_TIME ( #68, #181 ) ;
#175 = APPROVAL_STATUS ( 'not_yet_approved' ) ;
#176 = PRODUCT ( 'End Cap SDR11_001 117 0140 0075', 'End Cap SDR11_001 117 0140 0075', '', ( #263 ) ) ;
#177 = VERTEX_POINT ( 'NONE', #189 ) ;
#178 = LOCAL_TIME ( 14, 41, 8.000000000000000000, #199 ) ;
#179 = EDGE_LOOP ( 'NONE', ( #150, #149, #77 ) ) ;
#180 = APPLICATION_CONTEXT ( 'configuration controlled 3d designs of mechanical parts and assemblies' ) ;
#181 = APPROVAL ( #304, 'BELÝRTÝLMEMÝÞ' ) ;
#182 = ORIENTED_EDGE ( 'NONE', *, *, #81, .T. ) ;
#183 = EDGE_LOOP ( 'NONE', ( #207, #307, #249 ) ) ;
#184 = VECTOR ( 'NONE', #257, 1000.000000000000000 ) ;
#185 = AXIS2_PLACEMENT_3D ( 'NONE', #79, #187, #276 ) ;
#186 = CARTESIAN_POINT ( 'NONE',  ( 0.0000000000000000000, 0.0000000000000000000, 0.0000000000000000000 ) ) ;
#187 = DIRECTION ( 'NONE',  ( 1.000000000000000000, 0.0000000000000000000, -1.224646799147353207E-16 ) ) ;
#188 = AXIS2_PLACEMENT_3D ( 'NONE', #5, #104, #212 ) ;
#189 = CARTESIAN_POINT ( 'NONE',  ( 0.0000000000000000000, 70.00000000000000000, -30.69999999999998153 ) ) ;
#190 = DIRECTION ( 'NONE',  ( 0.0000000000000000000, 0.0000000000000000000, -1.000000000000000000 ) ) ;
#191 = DIRECTION ( 'NONE',  ( -0.0000000000000000000, -1.000000000000000000, -0.0000000000000000000 ) ) ;
#192 = LINE ( 'NONE', #280, #137 ) ;
#193 = CC_DESIGN_PERSON_AND_ORGANIZATION_ASSIGNMENT ( #266, #41, ( #129 ) ) ;
#194 = CARTESIAN_POINT ( 'NONE',  ( 0.0000000000000000000, 70.00000000000000000, 0.0000000000000000000 ) ) ;
#195 = AXIS2_PLACEMENT_3D ( 'NONE', #31, #130, #237 ) ;
#196 = CIRCLE ( 'NONE', #188, 112.5000000000000000 ) ;
#197 = CC_DESIGN_PERSON_AND_ORGANIZATION_ASSIGNMENT ( #141, #247, ( #129 ) ) ;
#198 = COORDINATED_UNIVERSAL_TIME_OFFSET ( 3, 0, .AHEAD. ) ;
#199 = COORDINATED_UNIVERSAL_TIME_OFFSET ( 3, 0, .AHEAD. ) ;
#200 = ADVANCED_FACE ( 'NONE', ( #277, #56 ), #161, .T. ) ;
#201 = DATE_AND_TIME ( #92, #71 ) ;
#202 = CC_DESIGN_PERSON_AND_ORGANIZATION_ASSIGNMENT ( #118, #225, ( #220 ) ) ;
#203 = AXIS2_PLACEMENT_3D ( 'NONE', #186, #275, #53 ) ;
#204 = VERTEX_POINT ( 'NONE', #239 ) ;
#205 = CC_DESIGN_DATE_AND_TIME_ASSIGNMENT ( #201, #287, ( #220 ) ) ;
#206 = VERTEX_POINT ( 'NONE', #8 ) ;
#207 = ORIENTED_EDGE ( 'NONE', *, *, #35, .F. ) ;
#208 = ORIENTED_EDGE ( 'NONE', *, *, #126, .T. ) ;
#209 = CIRCLE ( 'NONE', #203, 30.69999999999999929 ) ;
#210 = AXIS2_PLACEMENT_3D ( 'NONE', #235, #293, #78 ) ;
#211 = DIRECTION ( 'NONE',  ( 0.0000000000000000000, 0.0000000000000000000, -1.000000000000000000 ) ) ;
#212 = DIRECTION ( 'NONE',  ( -1.224646799147353207E-16, 0.0000000000000000000, -1.000000000000000000 ) ) ;
#213 = LINE ( 'NONE', #295, #102 ) ;
#214 = CARTESIAN_POINT ( 'NONE',  ( 3.759665673382374255E-15, 0.0000000000000000000, 30.69999999999999929 ) ) ;
#215 = CIRCLE ( 'NONE', #210, 112.5000000000000000 ) ;
#216 = APPROVAL ( #175, 'BELÝRTÝLMEMÝÞ' ) ;
#217 = CARTESIAN_POINT ( 'NONE',  ( 0.0000000000000000000, 0.0000000000000000000, 0.0000000000000000000 ) ) ;
#218 = CARTESIAN_POINT ( 'NONE',  ( -2.160526485124692509E-14, 74.87068012769701397, 0.0000000000000000000 ) ) ;
#219 = AXIS2_PLACEMENT_3D ( 'NONE', #4, #103, #211 ) ;
#220 = SECURITY_CLASSIFICATION ( '', '', #17 ) ;
#221 = CARTESIAN_POINT ( 'NONE',  ( 0.0000000000000000000, 74.87068012769701397, 0.0000000000000000000 ) ) ;
#222 = PERSON_AND_ORGANIZATION ( #21, #10 ) ;
#223 = ADVANCED_FACE ( 'NONE', ( #109 ), #95, .F. ) ;
#224 = PERSON_AND_ORGANIZATION ( #21, #10 ) ;
#225 = PERSON_AND_ORGANIZATION_ROLE ( 'classification_officer' ) ;
#226 = TOROIDAL_SURFACE ( 'NONE', #219, -1.032607307601313806, 112.5000000000000000 ) ;
#227 = PRODUCT_RELATED_PRODUCT_CATEGORY ( 'detail', '', ( #176 ) ) ;
#228 = AXIS2_PLACEMENT_3D ( 'NONE', #274, #52, #154 ) ;
#229 = ORIENTED_EDGE ( 'NONE', *, *, #81, .F. ) ;
#230 = CIRCLE ( 'NONE', #228, 30.69999999999998153 ) ;
#231 = ORIENTED_EDGE ( 'NONE', *, *, #126, .F. ) ;
#232 = VERTEX_POINT ( 'NONE', #297 ) ;
#233 = EDGE_CURVE ( 'NONE', #253, #177, #86, .T. ) ;
#234 = ORIENTED_EDGE ( 'NONE', *, *, #271, .T. ) ;
#235 = CARTESIAN_POINT ( 'NONE',  ( 0.0000000000000000000, -30.82458075981011092, 1.032607307601313806 ) ) ;
#236 = LOCAL_TIME ( 14, 41, 8.000000000000000000, #198 ) ;
#237 = DIRECTION ( 'NONE',  ( 0.0000000000000000000, 0.0000000000000000000, -1.000000000000000000 ) ) ;
#238 = CARTESIAN_POINT ( 'NONE',  ( 0.0000000000000000000, 0.0000000000000000000, 0.0000000000000000000 ) ) ;
#239 = CARTESIAN_POINT ( 'NONE',  ( 4.592425496802574367E-15, 0.0000000000000000000, 37.50000000000000000 ) ) ;
#240 = DIRECTION ( 'NONE',  ( 0.0000000000000000000, 0.0000000000000000000, -1.000000000000000000 ) ) ;
#241 = CLOSED_SHELL ( 'NONE', ( #223, #265, #99, #252, #42, #200, #72, #24, #116 ) ) ;
#242 = CARTESIAN_POINT ( 'NONE',  ( 0.0000000000000000000, 0.0000000000000000000, 0.0000000000000000000 ) ) ;
#243 = MANIFOLD_SOLID_BREP ( 'Döndür1', #241 ) ;
#244 = DIRECTION ( 'NONE',  ( -0.0000000000000000000, -1.000000000000000000, -0.0000000000000000000 ) ) ;
#245 = PERSON_AND_ORGANIZATION ( #21, #10 ) ;
#246 = CALENDAR_DATE ( 2019, 16, 12 ) ;
#247 = PERSON_AND_ORGANIZATION_ROLE ( 'design_supplier' ) ;
#248 = DATE_AND_TIME ( #142, #114 ) ;
#249 = ORIENTED_EDGE ( 'NONE', *, *, #97, .F. ) ;
#250 = ORIENTED_EDGE ( 'NONE', *, *, #105, .F. ) ;
#251 = ORIENTED_EDGE ( 'NONE', *, *, #163, .F. ) ;
#252 = ADVANCED_FACE ( 'NONE', ( #36 ), #136, .F. ) ;
#253 = VERTEX_POINT ( 'NONE', #218 ) ;
#254 = CARTESIAN_POINT ( 'NONE',  ( 0.0000000000000000000, 74.87068012769701397, -37.49999999999997868 ) ) ;
#255 = CYLINDRICAL_SURFACE ( 'NONE', #195, 30.69999999999999218 ) ;
#256 = APPROVAL_PERSON_ORGANIZATION ( #70, #216, #267 ) ;
#257 = DIRECTION ( 'NONE',  ( -0.0000000000000000000, -1.000000000000000000, -0.0000000000000000000 ) ) ;
#258 = CARTESIAN_POINT ( 'NONE',  ( 30.69999999999999929, 0.0000000000000000000, 0.0000000000000000000 ) ) ;
#259 = CARTESIAN_POINT ( 'NONE',  ( -1.647987302177966740E-14, 81.67068012769701113, 0.0000000000000000000 ) ) ;
#260 = DIRECTION ( 'NONE',  ( 0.0000000000000000000, 0.0000000000000000000, 1.000000000000000000 ) ) ;
#261 = DIRECTION ( 'NONE',  ( -0.0000000000000000000, -1.000000000000000000, -0.0000000000000000000 ) ) ;
#262 =( NAMED_UNIT ( * ) SI_UNIT ( $, .STERADIAN. ) SOLID_ANGLE_UNIT ( ) );
#263 = MECHANICAL_CONTEXT ( 'NONE', #160, 'mechanical' ) ;
#264 = PERSON_AND_ORGANIZATION ( #21, #10 ) ;
#265 = ADVANCED_FACE ( 'NONE', ( #300 ), #76, .T. ) ;
#266 = PERSON_AND_ORGANIZATION ( #21, #10 ) ;
#267 = APPROVAL_ROLE ( '' ) ;
#268 = LOCAL_TIME ( 14, 41, 8.000000000000000000, #140 ) ;
#269 = ORIENTED_EDGE ( 'NONE', *, *, #271, .F. ) ;
#270 = ORIENTED_EDGE ( 'NONE', *, *, #58, .F. ) ;
#271 = EDGE_CURVE ( 'NONE', #177, #48, #63, .T. ) ;
#272 = ORIENTED_EDGE ( 'NONE', *, *, #14, .F. ) ;
#273 = ORIENTED_EDGE ( 'NONE', *, *, #135, .T. ) ;
#274 = CARTESIAN_POINT ( 'NONE',  ( 0.0000000000000000000, 70.00000000000000000, 0.0000000000000000000 ) ) ;
#275 = DIRECTION ( 'NONE',  ( -0.0000000000000000000, -1.000000000000000000, -0.0000000000000000000 ) ) ;
#276 = DIRECTION ( 'NONE',  ( -1.224646799147353207E-16, 0.0000000000000000000, -1.000000000000000000 ) ) ;
#277 = FACE_OUTER_BOUND ( 'NONE', #98, .T. ) ;
#278 = LINE ( 'NONE', #57, #152 ) ;
#279 = DIRECTION ( 'NONE',  ( 0.0000000000000000000, 0.0000000000000000000, -1.000000000000000000 ) ) ;
#280 = CARTESIAN_POINT ( 'NONE',  ( 3.759665673382373466E-15, 0.0000000000000000000, 30.69999999999999218 ) ) ;
#281 = CARTESIAN_POINT ( 'NONE',  ( 0.0000000000000000000, -30.82458075981011092, 0.0000000000000000000 ) ) ;
#282 =( NAMED_UNIT ( * ) PLANE_ANGLE_UNIT ( ) SI_UNIT ( $, .RADIAN. ) );
#283 = ADVANCED_BREP_SHAPE_REPRESENTATION ( 'End Cap SDR11_001 117 0140 0075', ( #243, #3 ), #19 ) ;
#284 = CARTESIAN_POINT ( 'NONE',  ( 0.0000000000000000000, 0.0000000000000000000, 0.0000000000000000000 ) ) ;
#285 = CALENDAR_DATE ( 2019, 16, 12 ) ;
#286 = CALENDAR_DATE ( 2019, 16, 12 ) ;
#287 = DATE_TIME_ROLE ( 'classification_date' ) ;
#288 = CC_DESIGN_APPROVAL ( #216, ( #220 ) ) ;
#289 = ORIENTED_EDGE ( 'NONE', *, *, #298, .T. ) ;
#290 = ORIENTED_EDGE ( 'NONE', *, *, #90, .T. ) ;
#291 = EDGE_LOOP ( 'NONE', ( #100, #231 ) ) ;
#292 = EDGE_LOOP ( 'NONE', ( #270, #49, #234 ) ) ;
#293 = DIRECTION ( 'NONE',  ( -1.000000000000000000, 0.0000000000000000000, 0.0000000000000000000 ) ) ;
#294 = CARTESIAN_POINT ( 'NONE',  ( 3.759665673382372677E-15, 70.00000000000000000, 30.69999999999998153 ) ) ;
#295 = CARTESIAN_POINT ( 'NONE',  ( 0.0000000000000000000, 0.0000000000000000000, -30.69999999999999218 ) ) ;
#296 = CARTESIAN_POINT ( 'NONE',  ( 0.0000000000000000000, 0.0000000000000000000, 0.0000000000000000000 ) ) ;
#297 = CARTESIAN_POINT ( 'NONE',  ( 4.592425496802572789E-15, 74.87068012769701397, 37.49999999999997868 ) ) ;
#298 = EDGE_CURVE ( 'NONE', #204, #123, #50, .T. ) ;
#299 = DIRECTION ( 'NONE',  ( -0.0000000000000000000, -1.000000000000000000, -0.0000000000000000000 ) ) ;
#300 = FACE_OUTER_BOUND ( 'NONE', #183, .T. ) ;
#301 =( LENGTH_UNIT ( ) NAMED_UNIT ( * ) SI_UNIT ( .MILLI., .METRE. ) );
#302 = APPROVAL_PERSON_ORGANIZATION ( #224, #181, #89 ) ;
#303 = APPROVAL_STATUS ( 'not_yet_approved' ) ;
#304 = APPROVAL_STATUS ( 'not_yet_approved' ) ;
#305 = COORDINATED_UNIVERSAL_TIME_OFFSET ( 3, 0, .AHEAD. ) ;
#306 = EDGE_LOOP ( 'NONE', ( #51, #74, #229, #127 ) ) ;
#307 = ORIENTED_EDGE ( 'NONE', *, *, #47, .T. ) ;
ENDSEC;
END-ISO-10303-21;
